  0
SECTION
  2
HEADER
  9
$ACADVER
  1
AC1015
  9
$ACADMAINTVER
 70
     6
  9
$DWGCODEPAGE
  3
ANSI_1254
  9
$INSBASE
 10
0.0
 20
0.0
 30
0.0
  9
$EXTMIN
 10
0.0
 20
0.0
 30
0.0
  9
$EXTMAX
 10
279.4
 20
215.9
 30
0.0
  9
$LIMMIN
 10
0.0
 20
0.0
  9
$LIMMAX
 10
279.4
 20
215.9
  9
$ORTHOMODE
 70
     0
  9
$REGENMODE
 70
     1
  9
$FILLMODE
 70
     1
  9
$QTEXTMODE
 70
     0
  9
$MIRRTEXT
 70
     1
  9
$LTSCALE
 40
1.0
  9
$ATTMODE
 70
     1
  9
$TEXTSIZE
 40
3.5
  9
$TRACEWID
 40
1.0
  9
$TEXTSTYLE
  7
Standard
  9
$CLAYER
  8
0
  9
$CELTYPE
  6
ByLayer
  9
$CECOLOR
 62
   256
  9
$CELTSCALE
 40
1.0
  9
$DISPSILH
 70
     0
  9
$DIMSCALE
 40
1.0
  9
$DIMASZ
 40
3.5
  9
$DIMEXO
 40
1.0
  9
$DIMDLI
 40
3.75
  9
$DIMRND
 40
0.0
  9
$DIMDLE
 40
0.0
  9
$DIMEXE
 40
1.0
  9
$DIMTP
 40
0.0
  9
$DIMTM
 40
0.0
  9
$DIMTXT
 40
3.5
  9
$DIMCEN
 40
2.5
  9
$DIMTSZ
 40
0.0
  9
$DIMTOL
 70
     0
  9
$DIMLIM
 70
     0
  9
$DIMTIH
 70
     1
  9
$DIMTOH
 70
     1
  9
$DIMSE1
 70
     0
  9
$DIMSE2
 70
     0
  9
$DIMTAD
 70
     1
  9
$DIMZIN
 70
     0
  9
$DIMBLK
  1

  9
$DIMASO
 70
     1
  9
$DIMSHO
 70
     1
  9
$DIMPOST
  1

  9
$DIMAPOST
  1

  9
$DIMALT
 70
     0
  9
$DIMALTD
 70
     3
  9
$DIMALTF
 40
0.0393700787
  9
$DIMLFAC
 40
1.0
  9
$DIMTOFL
 70
     1
  9
$DIMTVP
 40
0.0
  9
$DIMTIX
 70
     0
  9
$DIMSOXD
 70
     0
  9
$DIMSAH
 70
     0
  9
$DIMBLK1
  1

  9
$DIMBLK2
  1

  9
$DIMSTYLE
  2
ISO-25
  9
$DIMCLRD
 70
     0
  9
$DIMCLRE
 70
     0
  9
$DIMCLRT
 70
     0
  9
$DIMTFAC
 40
1.0
  9
$DIMGAP
 40
1.524
  9
$DIMJUST
 70
     0
  9
$DIMSD1
 70
     0
  9
$DIMSD2
 70
     0
  9
$DIMTOLJ
 70
     0
  9
$DIMTZIN
 70
     0
  9
$DIMALTZ
 70
     0
  9
$DIMALTTZ
 70
     0
  9
$DIMUPT
 70
     0
  9
$DIMDEC
 70
     2
  9
$DIMTDEC
 70
     2
  9
$DIMALTU
 70
     2
  9
$DIMALTTD
 70
     3
  9
$DIMTXSTY
  7
Standard
  9
$DIMAUNIT
 70
     0
  9
$DIMADEC
 70
     2
  9
$DIMALTRND
 40
0.0
  9
$DIMAZIN
 70
     0
  9
$DIMDSEP
 70
    44
  9
$DIMATFIT
 70
     3
  9
$DIMFRAC
 70
     0
  9
$DIMLDRBLK
  1

  9
$DIMLUNIT
 70
     2
  9
$DIMLWD
 70
    -2
  9
$DIMLWE
 70
    -2
  9
$DIMTMOVE
 70
     0
  9
$LUNITS
 70
     2
  9
$LUPREC
 70
     2
  9
$SKETCHINC
 40
1.0
  9
$FILLETRAD
 40
10.0
  9
$AUNITS
 70
     0
  9
$AUPREC
 70
     2
  9
$MENU
  1
.
  9
$ELEVATION
 40
0.0
  9
$PELEVATION
 40
0.0
  9
$THICKNESS
 40
0.0
  9
$LIMCHECK
 70
     0
  9
$CHAMFERA
 40
0.0
  9
$CHAMFERB
 40
0.0
  9
$CHAMFERC
 40
0.0
  9
$CHAMFERD
 40
0.0
  9
$SKPOLY
 70
     0
  9
$TDCREATE
 40
2458985.699903241
  9
$TDUCREATE
 40
2458985.574903241
  9
$TDUPDATE
 40
2458985.699903518
  9
$TDUUPDATE
 40
2458985.574903518
  9
$TDINDWG
 40
0.0000000116
  9
$TDUSRTIMER
 40
0.0000000116
  9
$USRTIMER
 70
     1
  9
$ANGBASE
 50
0.0
  9
$ANGDIR
 70
     0
  9
$PDMODE
 70
     0
  9
$PDSIZE
 40
-1.0
  9
$PLINEWID
 40
0.0
  9
$SPLFRAME
 70
     0
  9
$SPLINETYPE
 70
     6
  9
$SPLINESEGS
 70
     8
  9
$HANDSEED
  5
EF
  9
$SURFTAB1
 70
     6
  9
$SURFTAB2
 70
     6
  9
$SURFTYPE
 70
     6
  9
$SURFU
 70
     6
  9
$SURFV
 70
     6
  9
$UCSBASE
  2

  9
$UCSNAME
  2

  9
$UCSORG
 10
0.0
 20
0.0
 30
0.0
  9
$UCSXDIR
 10
1.0
 20
0.0
 30
0.0
  9
$UCSYDIR
 10
0.0
 20
1.0
 30
0.0
  9
$UCSORTHOREF
  2

  9
$UCSORTHOVIEW
 70
     0
  9
$UCSORGTOP
 10
0.0
 20
0.0
 30
0.0
  9
$UCSORGBOTTOM
 10
0.0
 20
0.0
 30
0.0
  9
$UCSORGLEFT
 10
0.0
 20
0.0
 30
0.0
  9
$UCSORGRIGHT
 10
0.0
 20
0.0
 30
0.0
  9
$UCSORGFRONT
 10
0.0
 20
0.0
 30
0.0
  9
$UCSORGBACK
 10
0.0
 20
0.0
 30
0.0
  9
$PUCSBASE
  2

  9
$PUCSNAME
  2

  9
$PUCSORG
 10
0.0
 20
0.0
 30
0.0
  9
$PUCSXDIR
 10
1.0
 20
0.0
 30
0.0
  9
$PUCSYDIR
 10
0.0
 20
1.0
 30
0.0
  9
$PUCSORTHOREF
  2

  9
$PUCSORTHOVIEW
 70
     0
  9
$PUCSORGTOP
 10
0.0
 20
0.0
 30
0.0
  9
$PUCSORGBOTTOM
 10
0.0
 20
0.0
 30
0.0
  9
$PUCSORGLEFT
 10
0.0
 20
0.0
 30
0.0
  9
$PUCSORGRIGHT
 10
0.0
 20
0.0
 30
0.0
  9
$PUCSORGFRONT
 10
0.0
 20
0.0
 30
0.0
  9
$PUCSORGBACK
 10
0.0
 20
0.0
 30
0.0
  9
$USERI1
 70
     0
  9
$USERI2
 70
     0
  9
$USERI3
 70
     0
  9
$USERI4
 70
     0
  9
$USERI5
 70
     0
  9
$USERR1
 40
0.0
  9
$USERR2
 40
0.0
  9
$USERR3
 40
0.0
  9
$USERR4
 40
0.0
  9
$USERR5
 40
0.0
  9
$WORLDVIEW
 70
     1
  9
$SHADEDGE
 70
     3
  9
$SHADEDIF
 70
    70
  9
$TILEMODE
 70
     1
  9
$MAXACTVP
 70
    64
  9
$PINSBASE
 10
0.0
 20
0.0
 30
0.0
  9
$PLIMCHECK
 70
     0
  9
$PEXTMIN
 10
1.0000000000E+20
 20
1.0000000000E+20
 30
1.0000000000E+20
  9
$PEXTMAX
 10
-1.0000000000E+20
 20
-1.0000000000E+20
 30
-1.0000000000E+20
  9
$PLIMMIN
 10
0.0
 20
0.0
  9
$PLIMMAX
 10
420.0
 20
297.0
  9
$UNITMODE
 70
     0
  9
$VISRETAIN
 70
     1
  9
$PLINEGEN
 70
     0
  9
$PSLTSCALE
 70
     1
  9
$TREEDEPTH
 70
  3020
  9
$CMLSTYLE
  2
Standard
  9
$CMLJUST
 70
     0
  9
$CMLSCALE
 40
20.0
  9
$PROXYGRAPHICS
 70
     1
  9
$MEASUREMENT
 70
     1
  9
$CELWEIGHT
370
    -1
  9
$ENDCAPS
280
     0
  9
$JOINSTYLE
280
     0
  9
$LWDISPLAY
290
     1
  9
$INSUNITS
 70
     4
  9
$HYPERLINKBASE
  1

  9
$STYLESHEET
  1

  9
$XEDIT
290
     1
  9
$CEPSNTYPE
380
     0
  9
$PSTYLEMODE
290
     1
  9
$FINGERPRINTGUID
  2
{98b8bb1e-5aa9-4cee-8261-c03185957bd2}
  9
$VERSIONGUID
  2
{FAEB1C32-E019-11D5-929B-00C0DF256EC4}
  9
$EXTNAMES
290
     1
  9
$PSVPSCALE
 40
0.0
  9
$OLESTARTUP
290
     0
  0
ENDSEC
  0
SECTION
  2
CLASSES
  0
CLASS
  1
ACDBDICTIONARYWDFLT
  2
AcDbDictionaryWithDefault
  3
ObjectDBX Classes
 90
        0
280
     0
281
     0
  0
CLASS
  1
VISUALSTYLE
  2
AcDbVisualStyle
  3
ObjectDBX Classes
 90
     4095
280
     0
281
     0
  0
CLASS
  1
MATERIAL
  2
AcDbMaterial
  3
ObjectDBX Classes
 90
     1153
280
     0
281
     0
  0
CLASS
  1
SCALE
  2
AcDbScale
  3
ObjectDBX Classes
 90
     1153
280
     0
281
     0
  0
CLASS
  1
TABLESTYLE
  2
AcDbTableStyle
  3
ObjectDBX Classes
 90
     4095
280
     0
281
     0
  0
CLASS
  1
MLEADERSTYLE
  2
AcDbMLeaderStyle
  3
ACDB_MLEADERSTYLE_CLASS
 90
     4095
280
     0
281
     0
  0
CLASS
  1
SUN
  2
AcDbSun
  3
SCENEOE
 90
     1153
280
     0
281
     0
  0
CLASS
  1
ACDBPLACEHOLDER
  2
AcDbPlaceHolder
  3
ObjectDBX Classes
 90
        0
280
     0
281
     0
  0
CLASS
  1
LAYOUT
  2
AcDbLayout
  3
ObjectDBX Classes
 90
        0
280
     0
281
     0
  0
ENDSEC
  0
SECTION
  2
TABLES
  0
TABLE
  2
VPORT
  5
8
330
0
100
AcDbSymbolTable
 70
     1
  0
VPORT
  5
29
330
8
100
AcDbSymbolTableRecord
100
AcDbViewportTableRecord
  2
*Active
 70
     0
 10
0.0
 20
0.0
 11
1.0
 21
1.0
 12
139.7
 22
107.95
 13
0.0
 23
0.0
 14
10.0
 24
10.0
 15
10.0
 25
10.0
 16
0.0
 26
0.0
 36
1.0
 17
0.0
 27
0.0
 37
0.0
 40
215.9
 41
1.2941176471
 42
50.0
 43
0.0
 44
0.0
 50
0.0
 51
0.0
 71
     0
 72
  2000
 73
     1
 74
     3
 75
     0
 76
     0
 77
     0
 78
     0
281
     0
 65
     1
110
0.0
120
0.0
130
0.0
111
1.0
121
0.0
131
0.0
112
0.0
122
1.0
132
0.0
 79
     0
146
0.0
  0
ENDTAB
  0
TABLE
  2
LTYPE
  5
5
330
0
100
AcDbSymbolTable
 70
     6
  0
LTYPE
  5
14
330
5
100
AcDbSymbolTableRecord
100
AcDbLinetypeTableRecord
  2
ByBlock
 70
     0
  3

 72
    65
 73
     0
 40
0.0
  0
LTYPE
  5
15
330
5
100
AcDbSymbolTableRecord
100
AcDbLinetypeTableRecord
  2
ByLayer
 70
     0
  3

 72
    65
 73
     0
 40
0.0
  0
LTYPE
  5
16
330
5
100
AcDbSymbolTableRecord
100
AcDbLinetypeTableRecord
  2
Continuous
 70
     0
  3
Solid line
 72
    65
 73
     0
 40
0.0
  0
LTYPE
  5
6E
330
5
100
AcDbSymbolTableRecord
100
AcDbLinetypeTableRecord
  2
HIDDEN
 70
     0
  3
Hidden __ __ __ __ __ __ __ __ __ __ __ __ __ __
 72
    65
 73
     2
 40
1.905
 49
1.27
 74
     0
 49
-0.635
 74
     0
  0
LTYPE
  5
6F
330
5
100
AcDbSymbolTableRecord
100
AcDbLinetypeTableRecord
  2
PHANTOM
 70
     0
  3
Phantom ______  __  __  ______  __  __  ______
 72
    65
 73
     6
 40
12.7
 49
6.35
 74
     0
 49
-1.27
 74
     0
 49
1.27
 74
     0
 49
-1.27
 74
     0
 49
1.27
 74
     0
 49
-1.27
 74
     0
  0
LTYPE
  5
70
330
5
100
AcDbSymbolTableRecord
100
AcDbLinetypeTableRecord
  2
CENTER
 70
     0
  3
Center ____ _ ____ _ ____ _ ____ _ ____ _ ____
 72
    65
 73
     4
 40
10.16
 49
6.35
 74
     0
 49
-1.27
 74
     0
 49
1.27
 74
     0
 49
-1.27
 74
     0
  0
LTYPE
  5
71
330
5
100
AcDbSymbolTableRecord
100
AcDbLinetypeTableRecord
  2
CENTERX2
 70
     0
  3
Center (2x) ________  __  ________  __  _____
 72
    65
 73
     4
 40
20.32
 49
12.7
 74
     0
 49
-2.54
 74
     0
 49
2.54
 74
     0
 49
-2.54
 74
     0
  0
LTYPE
  5
72
330
5
100
AcDbSymbolTableRecord
100
AcDbLinetypeTableRecord
  2
DOT2
 70
     0
  3
Dot (.5x) ........................................
 72
    65
 73
     2
 40
0.635
 49
0.0
 74
     0
 49
-0.635
 74
     0
  0
ENDTAB
  0
TABLE
  2
LAYER
  5
2
330
0
100
AcDbSymbolTable
 70
    17
  0
LAYER
  5
10
330
2
100
AcDbSymbolTableRecord
100
AcDbLayerTableRecord
  2
0
 70
     0
 62
     7
  6
Continuous
370
    -3
390
F
  0
LAYER
  5
73
330
2
100
AcDbSymbolTableRecord
100
AcDbLayerTableRecord
  2
FORMAT
 70
     0
 62
     7
  6
Continuous
370
    -3
390
F
  0
LAYER
  5
74
330
2
100
AcDbSymbolTableRecord
100
AcDbLayerTableRecord
  2
YARDIMCI_GEOMETRI
 70
     0
 62
    -6
  6
Continuous
290
     0
370
    -3
390
F
  0
LAYER
  5
75
330
2
100
AcDbSymbolTableRecord
100
AcDbLayerTableRecord
  2
SAYFA_CERCEVESI
 70
     0
 62
     7
  6
Continuous
370
    25
390
F
  0
LAYER
  5
76
330
2
100
AcDbSymbolTableRecord
100
AcDbLayerTableRecord
  2
ANTET
 70
     0
 62
     7
  6
Continuous
370
    -3
390
F
  0
LAYER
  5
77
330
2
100
AcDbSymbolTableRecord
100
AcDbLayerTableRecord
  2
OLCU
 70
     0
 62
   150
  6
Continuous
370
    -3
390
F
  0
LAYER
  5
78
330
2
100
AcDbSymbolTableRecord
100
AcDbLayerTableRecord
  2
METIN
 70
     0
 62
    96
  6
Continuous
370
    -3
390
F
  0
LAYER
  5
79
330
2
100
AcDbSymbolTableRecord
100
AcDbLayerTableRecord
  2
BALON
 70
     0
 62
     5
  6
Continuous
370
    -3
390
F
  0
LAYER
  5
7A
330
2
100
AcDbSymbolTableRecord
100
AcDbLayerTableRecord
  2
VURGU
 70
     0
 62
     7
  6
Continuous
370
    -3
390
F
  0
LAYER
  5
7B
330
2
100
AcDbSymbolTableRecord
100
AcDbLayerTableRecord
  2
SILIK
 70
     0
 62
     7
  6
Continuous
370
    -3
390
F
  0
LAYER
  5
7C
330
2
100
AcDbSymbolTableRecord
100
AcDbLayerTableRecord
  2
MODEL
 70
     0
 62
     7
  6
Continuous
370
    -3
390
F
  0
LAYER
  5
7D
330
2
100
AcDbSymbolTableRecord
100
AcDbLayerTableRecord
  2
DETAYLANDıRMA
 70
     0
 62
   190
  6
Continuous
370
    -3
390
F
  0
LAYER
  5
7E
330
2
100
AcDbSymbolTableRecord
100
AcDbLayerTableRecord
  2
TOLERANS
 70
     0
 62
   230
  6
Continuous
370
    -3
390
F
  0
LAYER
  5
7F
330
2
100
AcDbSymbolTableRecord
100
AcDbLayerTableRecord
  2
MERKEZ_CIZGILERI
 70
     0
 62
    30
  6
Continuous
370
    -3
390
F
  0
LAYER
  5
80
330
2
100
AcDbSymbolTableRecord
100
AcDbLayerTableRecord
  2
KESIT-DETAY_CIZGILERI
 70
     0
 62
     7
  6
Continuous
370
    -3
390
F
  0
LAYER
  5
81
330
2
100
AcDbSymbolTableRecord
100
AcDbLayerTableRecord
  2
\U+041E\U+0421\U+0415\U+0412\U+042B\U+0415
 70
     0
 62
     7
  6
Continuous
370
    -3
390
F
  0
LAYER
  5
82
330
2
100
AcDbSymbolTableRecord
100
AcDbLayerTableRecord
  2
\U+0412\U+041E\U+0414\U+042F\U+041D\U+042B\U+0415_\U+0417\U+041D\U+0410\U+041A\U+0418
 70
     0
 62
    11
  6
Continuous
370
    -3
390
F
  0
ENDTAB
  0
TABLE
  2
STYLE
  5
3
330
0
100
AcDbSymbolTable
 70
     1
  0
STYLE
  5
11
330
3
100
AcDbSymbolTableRecord
100
AcDbTextStyleTableRecord
  2
Standard
 70
     0
 40
0.0
 41
1.0
 50
0.0
 71
     0
 42
3.5
  3
txt
  4

  0
ENDTAB
  0
TABLE
  2
VIEW
  5
6
330
0
100
AcDbSymbolTable
 70
     0
  0
ENDTAB
  0
TABLE
  2
UCS
  5
7
330
0
100
AcDbSymbolTable
 70
     0
  0
ENDTAB
  0
TABLE
  2
APPID
  5
9
330
0
100
AcDbSymbolTable
 70
     1
  0
APPID
  5
12
330
9
100
AcDbSymbolTableRecord
100
AcDbRegAppTableRecord
  2
ACAD
 70
     0
  0
ENDTAB
  0
TABLE
  2
DIMSTYLE
  5
A
330
0
100
AcDbSymbolTable
 70
     1
100
AcDbDimStyleTable
  0
DIMSTYLE
105
27
330
A
100
AcDbSymbolTableRecord
100
AcDbDimStyleTableRecord
  2
ISO-25
 70
     0
 41
2.5
 42
0.625
 43
3.75
 44
1.25
 73
     0
 74
     0
 77
     1
 78
     8
140
2.5
141
2.5
143
0.0393700787
147
0.625
171
     3
172
     1
178
     0
271
     2
272
     2
274
     3
278
    44
283
     0
284
     8
340
11
  0
ENDTAB
  0
TABLE
  2
BLOCK_RECORD
  5
1
330
0
100
AcDbSymbolTable
 70
     2
  0
BLOCK_RECORD
  5
1F
330
1
100
AcDbSymbolTableRecord
100
AcDbBlockTableRecord
  2
*Model_Space
340
22
  0
BLOCK_RECORD
  5
1B
330
1
100
AcDbSymbolTableRecord
100
AcDbBlockTableRecord
  2
*Paper_Space
340
1E
  0
BLOCK_RECORD
  5
23
330
1
100
AcDbSymbolTableRecord
100
AcDbBlockTableRecord
  2
*Paper_Space0
340
26
  0
BLOCK_RECORD
  5
88
330
1
100
AcDbSymbolTableRecord
100
AcDbBlockTableRecord
  2
SW_CENTERMARKSYMBOL_0
340
0
102
{BLKREFS
331
93
102
}
  0
ENDTAB
  0
ENDSEC
  0
SECTION
  2
BLOCKS
  0
BLOCK
  5
20
330
1F
100
AcDbEntity
  8
0
100
AcDbBlockBegin
  2
*Model_Space
 70
     0
 10
0.0
 20
0.0
 30
0.0
  3
*Model_Space
  1

  0
ENDBLK
  5
21
330
1F
100
AcDbEntity
  8
0
100
AcDbBlockEnd
  0
BLOCK
  5
1C
330
1B
100
AcDbEntity
 67
     1
  8
0
100
AcDbBlockBegin
  2
*Paper_Space
 70
     0
 10
0.0
 20
0.0
 30
0.0
  3
*Paper_Space
  1

  0
ENDBLK
  5
1D
330
1B
100
AcDbEntity
 67
     1
  8
0
100
AcDbBlockEnd
  0
BLOCK
  5
24
330
23
100
AcDbEntity
  8
0
100
AcDbBlockBegin
  2
*Paper_Space0
 70
     0
 10
0.0
 20
0.0
 30
0.0
  3
*Paper_Space0
  1

  0
ENDBLK
  5
25
330
23
100
AcDbEntity
  8
0
100
AcDbBlockEnd
  0
BLOCK
  5
89
330
88
100
AcDbEntity
  8
0
100
AcDbBlockBegin
  2
SW_CENTERMARKSYMBOL_0
 70
     0
 10
0.0
 20
0.0
 30
0.0
  3
SW_CENTERMARKSYMBOL_0
  1

  0
LINE
  5
8B
330
88
100
AcDbEntity
  8
FORMAT
 62
     0
100
AcDbLine
 10
0.0
 20
0.0
 30
0.0
 11
0.0
 21
2.5
 31
0.0
  0
LINE
  5
8C
330
88
100
AcDbEntity
  8
FORMAT
 62
     0
100
AcDbLine
 10
0.0
 20
0.0
 30
0.0
 11
-2.5
 21
0.0
 31
0.0
  0
LINE
  5
8D
330
88
100
AcDbEntity
  8
FORMAT
 62
     0
100
AcDbLine
 10
0.0
 20
0.0
 30
0.0
 11
0.0
 21
-2.5
 31
0.0
  0
LINE
  5
8E
330
88
100
AcDbEntity
  8
FORMAT
 62
     0
100
AcDbLine
 10
0.0
 20
0.0
 30
0.0
 11
2.5
 21
0.0
 31
0.0
  0
LINE
  5
8F
330
88
100
AcDbEntity
  8
FORMAT
 62
     0
100
AcDbLine
 10
0.0
 20
5.0
 30
0.0
 11
0.0
 21
180.0
 31
0.0
  0
LINE
  5
90
330
88
100
AcDbEntity
  8
FORMAT
 62
     0
100
AcDbLine
 10
-5.0
 20
0.0
 30
0.0
 11
-180.0
 21
0.0
 31
0.0
  0
LINE
  5
91
330
88
100
AcDbEntity
  8
FORMAT
 62
     0
100
AcDbLine
 10
0.0
 20
-5.0
 30
0.0
 11
0.0
 21
-180.0
 31
0.0
  0
LINE
  5
92
330
88
100
AcDbEntity
  8
FORMAT
 62
     0
100
AcDbLine
 10
5.0
 20
0.0
 30
0.0
 11
180.0
 21
0.0
 31
0.0
  0
ENDBLK
  5
8A
330
88
100
AcDbEntity
  8
0
100
AcDbBlockEnd
  0
ENDSEC
  0
SECTION
  2
ENTITIES
  0
CIRCLE
  5
83
330
1F
100
AcDbEntity
  8
0
  6
Continuous
 62
     7
370
    25
100
AcDbCircle
 10
139.395004093
 20
107.5851680021
 30
0.0
 40
177.5
  0
CIRCLE
  5
84
330
1F
100
AcDbEntity
  8
0
  6
Continuous
 62
     7
370
    25
100
AcDbCircle
 10
139.395004093
 20
107.5851680021
 30
0.0
 40
145.2
  0
CIRCLE
  5
85
330
1F
100
AcDbEntity
  8
0
  6
Continuous
 62
     7
370
    25
100
AcDbCircle
 10
139.395004093
 20
107.5851680021
 30
0.0
 40
145.0353726863132
  0
CIRCLE
  5
86
330
1F
100
AcDbEntity
  8
0
  6
Continuous
 62
     7
370
    25
100
AcDbCircle
 10
139.395004093
 20
107.5851680021
 30
0.0
 40
129.0646273136868
  0
CIRCLE
  5
87
330
1F
100
AcDbEntity
  8
0
  6
Continuous
 62
     7
370
    25
100
AcDbCircle
 10
139.395004093
 20
107.5851680021
 30
0.0
 40
128.9
  0
INSERT
  5
93
330
1F
100
AcDbEntity
  8
FORMAT
 62
     7
100
AcDbBlockReference
  2
SW_CENTERMARKSYMBOL_0
 10
139.395004093
 20
107.5851680021
 30
0.0
  0
ARC
  5
94
330
1F
100
AcDbEntity
  8
0
  6
Continuous
 62
     7
370
    25
100
AcDbCircle
 10
-413.2431306886
 20
283.0851680021
 30
0.0
 40
2.000000000000009
100
AcDbArc
 50
75.2564371635
 51
90.0
  0
ARC
  5
95
330
1F
100
AcDbEntity
  8
0
  6
Continuous
 62
     7
370
    25
100
AcDbCircle
 10
-413.2431306886
 20
-67.9148319979
 30
0.0
 40
2.000000000000028
100
AcDbArc
 50
270.0
 51
284.7435628365
  0
LINE
  5
96
330
1F
100
AcDbEntity
  8
0
  6
Continuous
 62
     7
370
    25
100
AcDbLine
 10
-413.2431304136
 20
285.0851626377
 30
0.0
 11
-576.9843744168
 21
285.0851626377
 31
0.0
  0
LINE
  5
97
330
1F
100
AcDbEntity
  8
0
  6
Continuous
 62
     7
370
    25
100
AcDbLine
 10
-576.9843744168
 20
-69.9148266335
 30
0.0
 11
-413.2431304136
 21
-69.9148266335
 31
0.0
  0
LINE
  5
98
330
1F
100
AcDbEntity
  8
0
  6
Continuous
 62
     7
370
    25
100
AcDbLine
 10
-412.7341440001
 20
-69.8489784022
 30
0.0
 11
-337.2346112558
 21
-49.9806790371
 31
0.0
  0
LINE
  5
99
330
1F
100
AcDbEntity
  8
0
  6
Continuous
 62
     7
370
    25
100
AcDbLine
 10
-337.2346112558
 20
265.1510150413
 30
0.0
 11
-412.7341440001
 21
285.0193144064
 31
0.0
  0
ARC
  5
9A
330
1F
100
AcDbEntity
  8
0
  6
Continuous
 62
     7
370
    25
100
AcDbCircle
 10
-336.7256245251
 20
267.0851680021
 30
0.0
 40
2.000000000000064
100
AcDbArc
 50
255.2564371635
 51
270.0
  0
ARC
  5
9B
330
1F
100
AcDbEntity
  8
0
  6
Continuous
 62
     7
370
    25
100
AcDbCircle
 10
-336.7256245251
 20
-51.9148319979
 30
0.0
 40
2.000000000000016
100
AcDbArc
 50
90.0
 51
104.7435628365
  0
LINE
  5
9C
330
1F
100
AcDbEntity
  8
0
  6
Continuous
 62
     7
370
    25
100
AcDbLine
 10
-186.9843738207
 20
265.08516681
 30
0.0
 11
-336.7256248424
 21
265.08516681
 31
0.0
  0
LINE
  5
9D
330
1F
100
AcDbEntity
  8
0
  6
Continuous
 62
     7
370
    25
100
AcDbLine
 10
-336.7256248424
 20
-49.9148308058
 30
0.0
 11
-186.9843738207
 21
-49.9148308058
 31
0.0
  0
LINE
  5
9E
330
1F
100
AcDbEntity
  8
0
  6
Continuous
 62
     7
370
    25
100
AcDbLine
 10
-576.9843744168
 20
285.0851626377
 30
0.0
 11
-576.9843744168
 21
-69.9148266335
 31
0.0
  0
LINE
  5
9F
330
1F
100
AcDbEntity
  8
0
  6
Continuous
 62
     7
370
    25
100
AcDbLine
 10
-186.9843738207
 20
265.08516681
 30
0.0
 11
-186.9843738207
 21
-49.9148308058
 31
0.0
  0
LINE
  5
A0
330
1F
100
AcDbEntity
  8
0
  6
Continuous
 62
     1
370
    25
100
AcDbLine
 10
-412.7341440001
 20
285.0193144064
 30
0.0
 11
-412.7341440001
 21
-69.8489784022
 31
0.0
  0
LINE
  5
A1
330
1F
100
AcDbEntity
  8
0
  6
Continuous
 62
     1
370
    25
100
AcDbLine
 10
-413.2431304136
 20
285.0851626377
 30
0.0
 11
-413.2431304136
 21
-69.9148266335
 31
0.0
  0
LINE
  5
A2
330
1F
100
AcDbEntity
  8
0
  6
Continuous
 62
     1
370
    25
100
AcDbLine
 10
-337.2346112558
 20
265.1510150413
 30
0.0
 11
-337.2346112558
 21
-49.9806790371
 31
0.0
  0
LINE
  5
A3
330
1F
100
AcDbEntity
  8
0
  6
Continuous
 62
     1
370
    25
100
AcDbLine
 10
-336.7256248424
 20
265.08516681
 30
0.0
 11
-336.7256248424
 21
-49.9148308058
 31
0.0
  0
ARC
  5
A4
330
1F
100
AcDbEntity
  8
0
  6
Continuous
 62
     7
370
    25
100
AcDbCircle
 10
742.7593752139
 20
-67.9148319979
 30
0.0
 40
2.000000000000028
100
AcDbArc
 50
255.2564371635
 51
270.0
  0
ARC
  5
A5
330
1F
100
AcDbEntity
  8
0
  6
Continuous
 62
     7
370
    25
100
AcDbCircle
 10
742.7593752139
 20
283.0851680021
 30
0.0
 40
2.0
100
AcDbArc
 50
90.0
 51
104.7435628365
  0
LINE
  5
A6
330
1F
100
AcDbEntity
  8
0
  6
Continuous
 62
     7
370
    25
100
AcDbLine
 10
742.759374939
 20
-69.9148266335
 30
0.0
 11
906.5006189421
 21
-69.9148266335
 31
0.0
  0
LINE
  5
A7
330
1F
100
AcDbEntity
  8
0
  6
Continuous
 62
     7
370
    25
100
AcDbLine
 10
906.5006189421
 20
285.0851626377
 30
0.0
 11
742.759374939
 21
285.0851626377
 31
0.0
  0
LINE
  5
A8
330
1F
100
AcDbEntity
  8
0
  6
Continuous
 62
     7
370
    25
100
AcDbLine
 10
742.2503885255
 20
285.0193144064
 30
0.0
 11
666.7508557812
 21
265.1510150413
 31
0.0
  0
LINE
  5
A9
330
1F
100
AcDbEntity
  8
0
  6
Continuous
 62
     7
370
    25
100
AcDbLine
 10
666.7508557812
 20
-49.9806790371
 30
0.0
 11
742.2503885255
 21
-69.8489784022
 31
0.0
  0
ARC
  5
AA
330
1F
100
AcDbEntity
  8
0
  6
Continuous
 62
     7
370
    25
100
AcDbCircle
 10
666.2418690504
 20
-51.9148319979
 30
0.0
 40
2.0
100
AcDbArc
 50
75.2564371635
 51
90.0
  0
ARC
  5
AB
330
1F
100
AcDbEntity
  8
0
  6
Continuous
 62
     7
370
    25
100
AcDbCircle
 10
666.2418690504
 20
267.0851680021
 30
0.0
 40
2.000000000000035
100
AcDbArc
 50
270.0
 51
284.7435628365
  0
LINE
  5
AC
330
1F
100
AcDbEntity
  8
0
  6
Continuous
 62
     7
370
    25
100
AcDbLine
 10
516.5006183461
 20
-49.9148308058
 30
0.0
 11
666.2418693677
 21
-49.9148308058
 31
0.0
  0
LINE
  5
AD
330
1F
100
AcDbEntity
  8
0
  6
Continuous
 62
     7
370
    25
100
AcDbLine
 10
666.2418693677
 20
265.08516681
 30
0.0
 11
516.5006183461
 21
265.08516681
 31
0.0
  0
LINE
  5
AE
330
1F
100
AcDbEntity
  8
0
  6
Continuous
 62
     7
370
    25
100
AcDbLine
 10
906.5006189421
 20
107.5851680021
 30
0.0
 11
906.5006189421
 21
285.0851626377
 31
0.0
  0
LINE
  5
AF
330
1F
100
AcDbEntity
  8
0
  6
Continuous
 62
     7
370
    25
100
AcDbLine
 10
906.5006189421
 20
-69.9148266335
 30
0.0
 11
906.5006189421
 21
107.5851680021
 31
0.0
  0
LINE
  5
B0
330
1F
100
AcDbEntity
  8
0
  6
Continuous
 62
     7
370
    25
100
AcDbLine
 10
516.5006183461
 20
107.5851680021
 30
0.0
 11
516.5006183461
 21
265.08516681
 31
0.0
  0
LINE
  5
B1
330
1F
100
AcDbEntity
  8
0
  6
Continuous
 62
     7
370
    25
100
AcDbLine
 10
516.5006183461
 20
-49.9148308058
 30
0.0
 11
516.5006183461
 21
107.5851680021
 31
0.0
  0
LINE
  5
B2
330
1F
100
AcDbEntity
  8
0
  6
Continuous
 62
     1
370
    25
100
AcDbLine
 10
742.2503885255
 20
107.5851680021
 30
0.0
 11
742.2503885255
 21
285.0193144064
 31
0.0
  0
LINE
  5
B3
330
1F
100
AcDbEntity
  8
0
  6
Continuous
 62
     1
370
    25
100
AcDbLine
 10
742.2503885255
 20
-69.8489784022
 30
0.0
 11
742.2503885255
 21
107.5851680021
 31
0.0
  0
LINE
  5
B4
330
1F
100
AcDbEntity
  8
0
  6
Continuous
 62
     1
370
    25
100
AcDbLine
 10
742.759374939
 20
107.5851680021
 30
0.0
 11
742.759374939
 21
285.0851626377
 31
0.0
  0
LINE
  5
B5
330
1F
100
AcDbEntity
  8
0
  6
Continuous
 62
     1
370
    25
100
AcDbLine
 10
742.759374939
 20
-69.9148266335
 30
0.0
 11
742.759374939
 21
107.5851680021
 31
0.0
  0
LINE
  5
B6
330
1F
100
AcDbEntity
  8
0
  6
Continuous
 62
     1
370
    25
100
AcDbLine
 10
666.7508557812
 20
107.5851680021
 30
0.0
 11
666.7508557812
 21
265.1510150413
 31
0.0
  0
LINE
  5
B7
330
1F
100
AcDbEntity
  8
0
  6
Continuous
 62
     1
370
    25
100
AcDbLine
 10
666.7508557812
 20
-49.9806790371
 30
0.0
 11
666.7508557812
 21
107.5851680021
 31
0.0
  0
LINE
  5
B8
330
1F
100
AcDbEntity
  8
0
  6
Continuous
 62
     1
370
    25
100
AcDbLine
 10
666.2418693677
 20
107.5851680021
 30
0.0
 11
666.2418693677
 21
265.08516681
 31
0.0
  0
LINE
  5
B9
330
1F
100
AcDbEntity
  8
0
  6
Continuous
 62
     1
370
    25
100
AcDbLine
 10
666.2418693677
 20
-49.9148308058
 30
0.0
 11
666.2418693677
 21
107.5851680021
 31
0.0
  0
ARC
  5
BA
330
1F
100
AcDbEntity
  8
0
  6
Continuous
 62
     7
370
    25
100
AcDbCircle
 10
314.895004093
 20
635.3475131625
 30
0.0
 40
2.000000000000057
100
AcDbArc
 50
345.2564371635
 51
0.0
  0
ARC
  5
BB
330
1F
100
AcDbEntity
  8
0
  6
Continuous
 62
     7
370
    25
100
AcDbCircle
 10
-36.104995907
 20
635.3475131625
 30
0.0
 40
2.000000000000028
100
AcDbArc
 50
180.0
 51
194.7435628365
  0
LINE
  5
BC
330
1F
100
AcDbEntity
  8
0
  6
Continuous
 62
     7
370
    25
100
AcDbLine
 10
316.8949987286
 20
635.3475128875
 30
0.0
 11
316.8949987286
 21
799.0887568907
 31
0.0
  0
LINE
  5
BD
330
1F
100
AcDbEntity
  8
0
  6
Continuous
 62
     7
370
    25
100
AcDbLine
 10
-38.1049905425
 20
799.0887568907
 30
0.0
 11
-38.1049905425
 21
635.3475128875
 31
0.0
  0
LINE
  5
BE
330
1F
100
AcDbEntity
  8
0
  6
Continuous
 62
     7
370
    25
100
AcDbLine
 10
-38.0391423112
 20
634.838526474
 30
0.0
 11
-18.1708429462
 21
559.3389937298
 31
0.0
  0
LINE
  5
BF
330
1F
100
AcDbEntity
  8
0
  6
Continuous
 62
     7
370
    25
100
AcDbLine
 10
296.9608511323
 20
559.3389937298
 30
0.0
 11
316.8291504973
 21
634.838526474
 31
0.0
  0
ARC
  5
C0
330
1F
100
AcDbEntity
  8
0
  6
Continuous
 62
     7
370
    25
100
AcDbCircle
 10
298.895004093
 20
558.830006999
 30
0.0
 40
2.0
100
AcDbArc
 50
165.2564371635
 51
180.0
  0
ARC
  5
C1
330
1F
100
AcDbEntity
  8
0
  6
Continuous
 62
     7
370
    25
100
AcDbCircle
 10
-20.104995907
 20
558.830006999
 30
0.0
 40
2.0
100
AcDbArc
 50
0.0
 51
14.7435628365
  0
LINE
  5
C2
330
1F
100
AcDbEntity
  8
0
  6
Continuous
 62
     7
370
    25
100
AcDbLine
 10
296.895002901
 20
409.0887562947
 30
0.0
 11
296.895002901
 21
558.8300073163
 31
0.0
  0
LINE
  5
C3
330
1F
100
AcDbEntity
  8
0
  6
Continuous
 62
     7
370
    25
100
AcDbLine
 10
-18.1049947149
 20
558.8300073163
 30
0.0
 11
-18.1049947149
 21
409.0887562947
 31
0.0
  0
LINE
  5
C4
330
1F
100
AcDbEntity
  8
0
  6
Continuous
 62
     7
370
    25
100
AcDbLine
 10
316.8949987286
 20
799.0887568907
 30
0.0
 11
-38.1049905425
 21
799.0887568907
 31
0.0
  0
LINE
  5
C5
330
1F
100
AcDbEntity
  8
0
  6
Continuous
 62
     7
370
    25
100
AcDbLine
 10
296.895002901
 20
409.0887562947
 30
0.0
 11
-18.1049947149
 21
409.0887562947
 31
0.0
  0
LINE
  5
C6
330
1F
100
AcDbEntity
  8
0
  6
Continuous
 62
     1
370
    25
100
AcDbLine
 10
316.8291504973
 20
634.838526474
 30
0.0
 11
-38.0391423112
 21
634.838526474
 31
0.0
  0
LINE
  5
C7
330
1F
100
AcDbEntity
  8
0
  6
Continuous
 62
     1
370
    25
100
AcDbLine
 10
316.8949987286
 20
635.3475128875
 30
0.0
 11
-38.1049905425
 21
635.3475128875
 31
0.0
  0
LINE
  5
C8
330
1F
100
AcDbEntity
  8
0
  6
Continuous
 62
     1
370
    25
100
AcDbLine
 10
296.9608511323
 20
559.3389937298
 30
0.0
 11
-18.1708429462
 21
559.3389937298
 31
0.0
  0
LINE
  5
C9
330
1F
100
AcDbEntity
  8
0
  6
Continuous
 62
     1
370
    25
100
AcDbLine
 10
296.895002901
 20
558.8300073163
 30
0.0
 11
-18.1049947149
 21
558.8300073163
 31
0.0
  0
ARC
  5
CA
330
1F
100
AcDbEntity
  8
0
  6
Continuous
 62
     7
370
    25
100
AcDbCircle
 10
-36.104995907
 20
-460.2760400931
 30
0.0
 40
2.000000000000028
100
AcDbArc
 50
165.2564371635
 51
180.0
  0
ARC
  5
CB
330
1F
100
AcDbEntity
  8
0
  6
Continuous
 62
     7
370
    25
100
AcDbCircle
 10
314.895004093
 20
-460.2760400931
 30
0.0
 40
2.000000000000057
100
AcDbArc
 50
0.0
 51
14.7435628365
  0
LINE
  5
CC
330
1F
100
AcDbEntity
  8
0
  6
Continuous
 62
     7
370
    25
100
AcDbLine
 10
-38.1049905425
 20
-460.2760398181
 30
0.0
 11
-38.1049905425
 21
-624.0172838213
 31
0.0
  0
LINE
  5
CD
330
1F
100
AcDbEntity
  8
0
  6
Continuous
 62
     7
370
    25
100
AcDbLine
 10
316.8949987286
 20
-624.0172838213
 30
0.0
 11
316.8949987286
 21
-460.2760398181
 31
0.0
  0
LINE
  5
CE
330
1F
100
AcDbEntity
  8
0
  6
Continuous
 62
     7
370
    25
100
AcDbLine
 10
316.8291504973
 20
-459.7670534046
 30
0.0
 11
296.9608511323
 21
-384.2675206603
 31
0.0
  0
LINE
  5
CF
330
1F
100
AcDbEntity
  8
0
  6
Continuous
 62
     7
370
    25
100
AcDbLine
 10
-18.1708429462
 20
-384.2675206603
 30
0.0
 11
-38.0391423112
 21
-459.7670534046
 31
0.0
  0
ARC
  5
D0
330
1F
100
AcDbEntity
  8
0
  6
Continuous
 62
     7
370
    25
100
AcDbCircle
 10
-20.104995907
 20
-383.7585339296
 30
0.0
 40
2.0
100
AcDbArc
 50
345.2564371635
 51
0.0
  0
ARC
  5
D1
330
1F
100
AcDbEntity
  8
0
  6
Continuous
 62
     7
370
    25
100
AcDbCircle
 10
298.895004093
 20
-383.7585339296
 30
0.0
 40
2.0
100
AcDbArc
 50
180.0
 51
194.7435628365
  0
LINE
  5
D2
330
1F
100
AcDbEntity
  8
0
  6
Continuous
 62
     7
370
    25
100
AcDbLine
 10
-18.1049947149
 20
-234.0172832252
 30
0.0
 11
-18.1049947149
 21
-383.7585342469
 31
0.0
  0
LINE
  5
D3
330
1F
100
AcDbEntity
  8
0
  6
Continuous
 62
     7
370
    25
100
AcDbLine
 10
296.895002901
 20
-383.7585342469
 30
0.0
 11
296.895002901
 21
-234.0172832252
 31
0.0
  0
LINE
  5
D4
330
1F
100
AcDbEntity
  8
0
  6
Continuous
 62
     7
370
    25
100
AcDbLine
 10
-38.1049905425
 20
-624.0172838213
 30
0.0
 11
316.8949987286
 21
-624.0172838213
 31
0.0
  0
LINE
  5
D5
330
1F
100
AcDbEntity
  8
0
  6
Continuous
 62
     7
370
    25
100
AcDbLine
 10
-18.1049947149
 20
-234.0172832252
 30
0.0
 11
296.895002901
 21
-234.0172832252
 31
0.0
  0
LINE
  5
D6
330
1F
100
AcDbEntity
  8
0
  6
Continuous
 62
     1
370
    25
100
AcDbLine
 10
-38.0391423112
 20
-459.7670534046
 30
0.0
 11
316.8291504973
 21
-459.7670534046
 31
0.0
  0
LINE
  5
D7
330
1F
100
AcDbEntity
  8
0
  6
Continuous
 62
     1
370
    25
100
AcDbLine
 10
-38.1049905425
 20
-460.2760398181
 30
0.0
 11
316.8949987286
 21
-460.2760398181
 31
0.0
  0
LINE
  5
D8
330
1F
100
AcDbEntity
  8
0
  6
Continuous
 62
     1
370
    25
100
AcDbLine
 10
-18.1708429462
 20
-384.2675206603
 30
0.0
 11
296.9608511323
 21
-384.2675206603
 31
0.0
  0
LINE
  5
D9
330
1F
100
AcDbEntity
  8
0
  6
Continuous
 62
     1
370
    25
100
AcDbLine
 10
-18.1049947149
 20
-383.7585342469
 30
0.0
 11
296.895002901
 21
-383.7585342469
 31
0.0
  0
LINE
  5
DA
330
1F
100
AcDbEntity
  8
0
  6
Continuous
 62
     7
370
    25
100
AcDbLine
 10
767.2487334357
 20
-224.9143901296
 30
0.0
 11
651.4661894411
 21
-158.0745502075
 31
0.0
  0
LINE
  5
DB
330
1F
100
AcDbEntity
  8
0
  6
Continuous
 62
     7
370
    25
100
AcDbLine
 10
473.9806052259
 20
-465.5219131354
 30
0.0
 11
589.7631492205
 21
-532.3617530574
 31
0.0
  0
LINE
  5
DC
330
1F
100
AcDbEntity
  8
0
  6
Continuous
 62
     7
370
    25
100
AcDbLine
 10
608.2168254713
 20
-539.3599038188
 30
0.0
 11
669.514025785
 21
-552.2054481702
 31
0.0
  0
LINE
  5
DD
330
1F
100
AcDbEntity
  8
0
  6
Continuous
 62
     7
370
    25
100
AcDbLine
 10
824.3148748477
 20
-284.0534697271
 30
0.0
 11
782.5373183405
 21
-237.3952360995
 31
0.0
  0
LINE
  5
DE
330
1F
100
AcDbEntity
  8
0
  6
Continuous
 62
     7
370
    25
100
AcDbLine
 10
917.2386422301
 20
-334.595115076
 30
0.0
 11
818.5653124093
 21
-277.6322142599
 31
0.0
  0
LINE
  5
DF
330
1F
100
AcDbEntity
  8
0
  6
Continuous
 62
     7
370
    25
100
AcDbLine
 10
661.0781127846
 20
-550.4376115483
 30
0.0
 11
759.7514426054
 21
-607.4005123644
 31
0.0
  0
LWPOLYLINE
  5
E0
330
1F
100
AcDbEntity
  8
0
  6
Continuous
 62
     7
370
    25
100
AcDbPolyline
 90
      142
 70
   128
 43
0.0
 10
437.2119474661
 20
-384.2544494059
 10
437.336544087
 20
-377.7260788129
 10
437.7100810687
 20
-371.066817892
 10
438.3318208412
 20
-364.289883419
 10
439.2005306093
 20
-357.4087293878
 10
440.3144823521
 20
-350.4370226753
 10
441.6714738969
 20
-343.3885958949
 10
443.2687867719
 20
-336.2774595598
 10
445.1032810369
 20
-329.1177123572
 10
447.1712899161
 20
-321.9235867668
 10
449.4687251651
 20
-314.7093517305
 10
451.991013851
 20
-307.4893400238
 10
454.7331404987
 20
-300.2778843806
 10
457.6896892382
 20
-293.0892931627
 10
460.8547595106
 20
-285.9378564348
 10
464.2220819724
 20
-278.8377668882
 10
467.784976348
 20
-271.8031076688
 10
471.5363619668
 20
-264.8478523782
 10
475.4687841051
 20
-257.9858194487
 10
479.5744455958
 20
-251.2306234761
 10
483.8451910238
 20
-244.5956843444
 10
488.2725436041
 20
-238.0941694335
 10
492.8477104505
 20
-231.738978411
 10
497.5616089171
 20
-225.5427401921
 10
502.4048824036
 20
-219.5177551468
 10
507.3679108918
 20
-213.6759890164
 10
512.4408425558
 20
-208.0290303308
 10
517.6136042989
 20
-202.5880964936
 10
522.8759307292
 20
-197.3639927191
 10
528.2173667942
 20
-192.3670861774
 10
533.6273125615
 20
-187.6073044774
 10
539.095025853
 20
-183.0940854764
 10
544.6096525382
 20
-178.836396295
 10
550.1602410218
 20
-174.8426884504
 10
555.7357731958
 20
-171.1208921566
 10
561.3251785976
 20
-167.6784081503
 10
566.9173597646
 20
-164.522056552
 10
572.5012139655
 20
-161.6581008233
 10
578.0656549329
 20
-159.0922352206
 10
583.5996362411
 20
-156.8295591319
 10
589.0921700751
 20
-154.8745662421
 10
594.5323509378
 20
-153.2311186795
 10
599.9093773822
 20
-151.902495307
 10
605.2125730847
 20
-150.891330887
 10
610.43141187
 20
-150.1996259704
 10
615.5555308815
 20
-149.8287636271
 10
620.5747569238
 20
-149.7794820725
 10
625.4791222672
 20
-150.0518655432
 10
630.2588962581
 20
-150.6453868857
 10
634.9045800504
 20
-151.5588619285
 10
639.4069592894
 20
-152.7904799054
 10
643.7570883066
 20
-154.3377882445
 10
647.9463322662
 20
-156.1977169073
 10
651.9663777025
 20
-158.3665844735
 10
655.8092325193
 20
-160.8400738057
 10
659.4672734054
 20
-163.6132715983
 10
662.9332405662
 20
-166.6806835862
 10
666.2002535285
 20
-170.0362071695
 10
669.2618216777
 20
-173.6731922517
 10
672.111865331
 20
-177.5844047393
 10
674.7447368106
 20
-181.7620873808
 10
677.155188834
 20
-186.1979536802
 10
679.3384588071
 20
-190.8831757374
 10
681.2901845312
 20
-195.808472454
 10
683.0065201064
 20
-200.9640517489
 10
684.4840411013
 20
-206.339680512
 10
685.7198183097
 20
-211.9246906952
 10
686.7113966779
 20
-217.7079884353
 10
687.4568058407
 20
-223.6780966416
 10
687.9545706583
 20
-229.8231572777
 10
688.2037006799
 20
-236.1309720458
 10
688.2037006799
 20
-242.5890168359
 10
687.9545706583
 20
-249.1844710043
 10
687.4568058407
 20
-255.9042386659
 10
686.7113966779
 20
-262.7349779724
 10
685.7198183097
 20
-269.6631277276
 10
684.4840411013
 20
-276.6749359054
 10
683.0065201064
 20
-283.7564740979
 10
681.2901845312
 20
-290.8936922675
 10
679.3384588071
 20
-298.0724035399
 10
677.155188834
 20
-305.2783754524
 10
674.7447368106
 20
-312.4972904191
 10
672.111865331
 20
-319.714821766
 10
669.2618216777
 20
-326.9166246135
 10
666.2002535285
 20
-334.0884210403
 10
662.9332405662
 20
-341.2159575003
 10
659.4672734054
 20
-348.285089993
 10
655.8092325193
 20
-355.2817718933
 10
651.9663777025
 20
-362.1921269556
 10
647.9463322662
 20
-369.0024401866
 10
643.7570883066
 20
-375.6991669711
 10
639.4069592894
 20
-382.2690273654
 10
634.9045800504
 20
-388.6989817619
 10
630.2588962581
 20
-394.9762491398
 10
625.4791222672
 20
-401.0883800652
 10
620.5747569238
 20
-407.0232232325
 10
615.5555308815
 20
-412.7690167148
 10
610.43141187
 20
-418.3143362528
 10
605.2125730847
 20
-423.6481743402
 10
599.9093773822
 20
-428.759949348
 10
594.5323509378
 20
-433.6395085633
 10
589.0921700751
 20
-438.2771601278
 10
583.5996362411
 20
-442.6637118192
 10
578.0656549329
 20
-446.7904345468
 10
572.5012139655
 20
-450.6491357343
 10
566.9173597646
 20
-454.2321608381
 10
561.3251785976
 20
-457.5324041827
 10
555.7357731958
 20
-460.5433102891
 10
550.1602410218
 20
-463.25888642
 10
544.6096525382
 20
-465.6737516284
 10
539.095025853
 20
-467.7831148911
 10
533.6273125615
 20
-469.5827832829
 10
528.2173667942
 20
-471.0691920118
 10
522.8759307292
 20
-472.2393762806
 10
517.6136042989
 20
-473.0910252765
 10
512.4408425558
 20
-473.622435023
 10
507.3679108918
 20
-473.8325585652
 10
502.4048824036
 20
-473.7209831567
 10
497.5616089171
 20
-473.2879226514
 10
492.8477104505
 20
-472.5342357542
 10
488.2725436041
 20
-471.461419934
 10
483.8451910238
 20
-470.0716175065
 10
479.5744455958
 20
-468.3675760888
 10
475.4687841051
 20
-466.3526759734
 10
471.5363619668
 20
-464.0309210021
 10
467.784976348
 20
-461.4069233536
 10
464.2220819724
 20
-458.4858944192
 10
460.8547595106
 20
-455.2736326322
 10
457.6896892382
 20
-451.7765082567
 10
454.7331404987
 20
-448.0014755537
 10
451.991013851
 20
-443.956011948
 10
449.4687251651
 20
-439.6481727706
 10
447.1712899161
 20
-435.0865000115
 10
445.1032810369
 20
-430.2800466499
 10
443.2687867719
 20
-425.2383614415
 10
441.6714738969
 20
-419.9714432965
 10
440.3144823521
 20
-414.4897656045
 10
439.2005306093
 20
-408.8042001981
 10
438.3318208412
 20
-402.9260371158
 10
437.7100810687
 20
-396.8669481045
 10
437.336544087
 20
-390.6389638026
 10
437.2119474661
 20
-384.2544494059
  0
LWPOLYLINE
  5
E1
330
1F
100
AcDbEntity
  8
0
  6
Continuous
 62
     7
370
    25
100
AcDbPolyline
 90
      128
 70
   128
 43
0.0
 10
460.0514932616
 20
-371.0694602686
 10
460.1771224803
 20
-365.1336177422
 10
460.553694035
 20
-359.0672577027
 10
461.1803017685
 20
-352.8852163156
 10
462.0553967842
 20
-346.6026323508
 10
463.1768401293
 20
-340.2348783649
 10
464.5418922589
 20
-333.7975329435
 10
466.1472130351
 20
-327.3063510434
 10
467.9888722644
 20
-320.7772168448
 10
470.0623602339
 20
-314.2261148545
 10
472.362608785
 20
-307.669066029
 10
474.8839807769
 20
-301.1221247321
 10
477.6203122329
 20
-294.6013087756
 10
480.5649070725
 20
-288.1225720426
 10
483.7105581845
 20
-281.7017801548
 10
487.0495632325
 20
-275.3546405107
 10
490.5737562644
 20
-269.0966779547
 10
494.2745129815
 20
-262.9432134837
 10
498.1427770796
 20
-256.9093125389
 10
502.1690760545
 20
-251.0097272113
 10
506.3435633489
 20
-245.258908414
 10
510.6560236201
 20
-239.6709115844
 10
515.0958990828
 20
-234.2594362313
 10
519.6523290209
 20
-229.0376997016
 10
524.3141603245
 20
-224.0184919346
 10
529.0699843687
 20
-219.2141055029
 10
533.9081659891
 20
-214.6362823826
 10
538.8168619212
 20
-210.2962276438
 10
543.7840616303
 20
-206.2045737119
 10
548.7976083848
 20
-202.3713195333
 10
553.8452348175
 20
-198.8058465481
 10
558.9145869629
 20
-195.5168926465
 10
563.9932598179
 20
-192.5124951375
 10
569.0688253307
 20
-189.8000110938
 10
574.1288626933
 20
-187.3860755294
 10
579.1609883054
 20
-185.2766084365
 10
584.1528887019
 20
-183.4767471074
 10
589.0923491992
 20
-181.9909147691
 10
593.9672776031
 20
-180.82274606
 10
598.7657489897
 20
-179.9750855133
 10
603.476017559
 20
-179.4500293835
 10
608.086556148
 20
-179.2488419993
 10
612.5860852064
 20
-179.3720363751
 10
616.96359387
 20
-179.8192951253
 10
621.2083663026
 20
-180.5895221777
 10
625.3100133059
 20
-181.6808488606
 10
629.2585039302
 20
-183.0905913197
 10
633.0441707419
 20
-184.8152961465
 10
636.6577519712
 20
-186.8507586328
 10
640.0904020482
 20
-189.1919862704
 10
643.3337232133
 20
-191.8332474229
 10
646.3797760539
 20
-194.7680834943
 10
649.2211111146
 20
-197.9893150162
 10
651.8507688971
 20
-201.4890538142
 10
654.2623167384
 20
-205.2587425564
 10
656.44985408
 20
-209.2891486695
 10
658.4080282719
 20
-213.5704099686
 10
660.1320451103
 20
-218.092049867
 10
661.6176793734
 20
-222.8430108378
 10
662.8613169692
 20
-227.8116544178
 10
663.8598917142
 20
-232.9858296432
 10
664.6109696281
 20
-238.3528715366
 10
665.1127067862
 20
-243.8996490123
 10
665.3638914666
 20
-249.6125793289
 10
665.3638914666
 20
-255.4776919632
 10
665.1127067862
 20
-261.4806339387
 10
664.6109696281
 20
-267.6067048065
 10
663.8598917142
 20
-273.840922801
 10
662.8613169692
 20
-280.1680278862
 10
661.6176793734
 20
-286.5725448708
 10
660.1320451103
 20
-293.0387826511
 10
658.4080282719
 20
-299.5509300219
 10
656.44985408
 20
-306.0930511193
 10
654.2623167384
 20
-312.6491340865
 10
651.8507688971
 20
-319.2031367005
 10
649.2211111146
 20
-325.7390137481
 10
646.3797760539
 20
-332.2407809029
 10
643.3337232133
 20
-338.6925147249
 10
640.0904020482
 20
-345.0784347873
 10
636.6577519712
 20
-351.3829158435
 10
633.0441707419
 20
-357.5905304104
 10
629.2585039302
 20
-363.6860731021
 10
625.3100133059
 20
-369.6546457985
 10
621.2083663026
 20
-375.4816333102
 10
616.96359387
 20
-381.1527702944
 10
612.5860852064
 20
-386.6541929667
 10
608.086556148
 20
-391.9724330137
 10
603.476017559
 20
-397.0944601765
 10
598.7657489897
 20
-402.0077643781
 10
593.9672776031
 20
-406.7003009679
 10
589.0923491992
 20
-411.1606047886
 10
584.1528887019
 20
-415.3777521491
 10
579.1609883054
 20
-419.3414163377
 10
574.1288626933
 20
-423.0419178079
 10
569.0688253307
 20
-426.4701770277
 10
563.9932598179
 20
-429.6178161889
 10
558.9145869629
 20
-432.4771295457
 10
553.8452348175
 20
-435.0411250476
 10
548.7976083848
 20
-437.303517492
 10
543.7840616303
 20
-439.2587811841
 10
538.8168619212
 20
-440.9021339633
 10
533.9081659891
 20
-442.2295389124
 10
529.0699843687
 20
-443.2377613887
 10
524.3141603245
 20
-443.9243325201
 10
519.6523290209
 20
-444.2875606079
 10
515.0958990828
 20
-444.3265661067
 10
510.6560236201
 20
-444.0412618492
 10
506.3435633489
 20
-443.4323256665
 10
502.1690760545
 20
-442.5012673077
 10
498.1427770796
 20
-441.250347827
 10
494.2745129815
 20
-439.682649544
 10
490.5737562644
 20
-437.8019878294
 10
487.0495632325
 20
-435.6129719381
 10
483.7105581845
 20
-433.1209654636
 10
480.5649070725
 20
-430.3320650427
 10
477.6203122329
 20
-427.2530851457
 10
474.8839807769
 20
-423.8915702406
 10
472.362608785
 20
-420.2557430807
 10
470.0623602339
 20
-416.3545047019
 10
467.9888722644
 20
-412.1974009634
 10
466.1472130351
 20
-407.7946012506
 10
464.5418922589
 20
-403.1568832667
 10
463.1768401293
 20
-398.2955934869
 10
462.0553967842
 20
-393.2226304268
 10
461.1803017685
 20
-387.9504096609
 10
460.553694035
 20
-382.4918341636
 10
460.1771224803
 20
-376.8602543865
 10
460.0514932616
 20
-371.0694602686
  0
ARC
  5
E2
330
1F
100
AcDbEntity
  8
0
  6
Continuous
 62
     7
370
    25
100
AcDbCircle
 10
737.2519846457
 20
-276.8100241958
 30
0.0
 40
59.94131941411222
100
AcDbArc
 50
47.5977166432
 51
59.971200327
  0
ARC
  5
E3
330
1F
100
AcDbEntity
  8
0
  6
Continuous
 62
     7
370
    25
100
AcDbCircle
 10
619.6968258792
 20
-480.4365622402
 30
0.0
 40
59.93538553903008
100
AcDbArc
 50
240.0375414678
 51
251.5220724873
  0
ARC
  5
E4
330
1F
100
AcDbEntity
  8
0
  6
Continuous
 62
     7
370
    25
100
AcDbCircle
 10
731.7619158123
 20
-283.1810336958
 30
0.0
 40
68.3475563483737
100
AcDbArc
 50
27.7184926032
 51
50.5805341768
  0
ARC
  5
E5
330
1F
100
AcDbEntity
  8
0
  6
Continuous
 62
     7
370
    25
100
AcDbCircle
 10
622.2925560534
 20
-473.5010792916
 30
0.0
 40
67.3399666470493
100
AcDbArc
 50
249.2676399133
 51
271.900011075
  0
ARC
  5
E6
330
1F
100
AcDbEntity
  8
0
  6
Continuous
 62
     7
370
    25
100
AcDbCircle
 10
777.9192792721
 20
-325.4208887475
 30
0.0
 40
62.15959013075069
100
AcDbArc
 50
31.2263922832
 51
41.7209570139
  0
ARC
  5
E7
330
1F
100
AcDbEntity
  8
0
  6
Continuous
 62
     7
370
    25
100
AcDbCircle
 10
682.2539500557
 20
-490.4910780433
 30
0.0
 40
63.01562624127433
100
AcDbArc
 50
258.3360653448
 51
270.4569171814
  0
LWPOLYLINE
  5
E8
330
1F
100
AcDbEntity
  8
0
  6
Continuous
 62
     7
370
    25
100
AcDbPolyline
 90
       69
 70
   128
 43
0.0
 10
917.2386422301
 20
-334.595115076
 10
917.7087060315
 20
-334.8697349569
 10
921.3172243706
 20
-337.2072011171
 10
924.7409340474
 20
-339.8432046254
 10
927.9722012138
 20
-342.7718648663
 10
931.0038029538
 20
-345.9866503069
 10
933.8289799664
 20
-349.480384585
 10
936.4414312979
 20
-353.245267802
 10
938.8353301465
 20
-357.2729039008
 10
941.0053238624
 20
-361.5543067496
 10
942.9465866314
 20
-366.0799153562
 10
944.6547667914
 20
-370.8396455743
 10
946.126071126
 20
-375.822859693
 10
947.3572121812
 20
-381.0184485619
 10
948.3454293382
 20
-386.4148179049
 10
949.088530961
 20
-391.9999248258
 10
949.5848522491
 20
-397.7613089839
 10
949.8332973843
 20
-403.6861072369
 10
949.8332973843
 20
-409.761107249
 10
949.5848522491
 20
-415.9727541494
 10
949.088530961
 20
-422.3071786692
 10
948.3454293382
 20
-428.7502524615
 10
947.3572121812
 20
-435.2875930477
 10
946.126071126
 20
-441.9046271226
 10
944.6547667914
 20
-448.5865730675
 10
942.9465866314
 20
-455.3185261184
 10
941.0053238624
 20
-462.08546901
 10
938.8353301465
 20
-468.8722932737
 10
936.4414312979
 20
-475.663866151
 10
933.8289799664
 20
-482.4450214722
 10
931.0038029538
 20
-489.2006356981
 10
927.9722012138
 20
-495.9156340035
 10
924.7409340474
 20
-502.5750359037
 10
921.3172243706
 20
-509.1639704642
 10
917.7087060315
 20
-515.6677432164
 10
913.9234290781
 20
-522.0718392
 10
909.9698439536
 20
-528.3619685892
 10
905.8567698859
 20
-534.5240910248
 10
901.5933843514
 20
-540.5444764499
 10
897.189202001
 20
-546.4096564386
 10
892.6540535873
 20
-552.1065823702
 10
887.9980490854
 20
-557.6225067934
 10
883.2315882303
 20
-562.9451476874
 10
878.3653025646
 20
-568.0626124101
 10
873.4100475357
 20
-572.9634874323
 10
868.3768866916
 20
-577.6368474611
 10
863.277046899
 20
-582.07224479
 10
858.1219091241
 20
-586.2597876251
 10
852.9229755051
 20
-590.1901469263
 10
847.6918476209
 20
-593.8545324512
 10
842.4401985019
 20
-597.2447819161
 10
837.1797457953
 20
-600.3533278183
 10
831.9222282216
 20
-603.1732231952
 10
826.6793775865
 20
-605.698194283
 10
821.4628911223
 20
-607.92258348
 10
816.2844118958
 20
-609.841445828
 10
811.1554907777
 20
-611.4504979629
 10
806.0875772228
 20
-612.7461356045
 10
801.0919744891
 20
-613.7254837428
 10
796.1798356863
 20
-614.3863502493
 10
791.3621163609
 20
-614.7272654168
 10
786.6495718618
 20
-614.7474469777
 10
782.0527151935
 20
-614.446885272
 10
777.5817985768
 20
-613.8262200505
 10
773.2468055467
 20
-612.8868545435
 10
769.0574088047
 20
-611.6308824527
 10
765.0229544146
 20
-610.0610970746
 10
761.1524407284
 20
-608.1810156341
 10
759.7514426054
 20
-607.4005123644
  0
LWPOLYLINE
  5
E9
330
1F
100
AcDbEntity
  8
0
  6
Continuous
 62
     1
370
    25
100
AcDbPolyline
 90
       67
 70
   128
 43
0.0
 10
777.672323422
 20
-232.5476475503
 10
778.7157845607
 20
-233.5205235082
 10
781.982797523
 20
-236.8760470915
 10
785.0443656723
 20
-240.5130321737
 10
787.8944093256
 20
-244.4242446613
 10
790.5272808052
 20
-248.6019273028
 10
792.9377328285
 20
-253.0377936023
 10
795.1210028017
 20
-257.7230156595
 10
797.0727285258
 20
-262.6483123761
 10
798.789064101
 20
-267.8038916709
 10
800.2665850958
 20
-273.1795204341
 10
801.5023623043
 20
-278.7645306173
 10
802.4939406725
 20
-284.5478283574
 10
803.2393498353
 20
-290.5179365637
 10
803.7371146529
 20
-296.6629971998
 10
803.9862446744
 20
-302.9708119678
 10
803.9862446744
 20
-309.428856758
 10
803.7371146529
 20
-316.0243109263
 10
803.2393498353
 20
-322.7440785879
 10
802.4939406725
 20
-329.5748178945
 10
801.5023623043
 20
-336.5029676497
 10
800.2665850958
 20
-343.5147758275
 10
798.789064101
 20
-350.59631402
 10
797.0727285258
 20
-357.7335321896
 10
795.1210028017
 20
-364.9122434619
 10
792.9377328285
 20
-372.1182153745
 10
790.5272808052
 20
-379.3371303412
 10
787.8944093256
 20
-386.5546616881
 10
785.0443656723
 20
-393.7564645356
 10
781.982797523
 20
-400.9282609623
 10
778.7157845607
 20
-408.0557974224
 10
775.2498174
 20
-415.124929915
 10
771.5917765139
 20
-422.1216118153
 10
767.7489216971
 20
-429.0319668777
 10
763.7288762608
 20
-435.8422801087
 10
759.5396323011
 20
-442.5390068932
 10
755.189503284
 20
-449.1088672874
 10
750.687124045
 20
-455.5388216839
 10
746.0414402527
 20
-461.8160890618
 10
741.2616662618
 20
-467.9282199873
 10
736.3573009184
 20
-473.8630631546
 10
731.3380748761
 20
-479.6088566368
 10
726.2139558645
 20
-485.1541761748
 10
720.9951170793
 20
-490.4880142623
 10
715.6919213768
 20
-495.5997892701
 10
710.3148949324
 20
-500.4793484853
 10
704.8747140697
 20
-505.1170000499
 10
699.3821802357
 20
-509.5035517413
 10
693.8481989275
 20
-513.6302744689
 10
688.2837579601
 20
-517.4889756563
 10
682.6999037592
 20
-521.0720007601
 10
677.1077225922
 20
-524.3722441048
 10
671.5183171903
 20
-527.3831502111
 10
665.9427850164
 20
-530.0987263421
 10
660.3921965327
 20
-532.5135915505
 10
654.8775698476
 20
-534.6229548132
 10
649.4098565561
 20
-536.422623205
 10
643.9999107888
 20
-537.9090319339
 10
638.6584747238
 20
-539.0792162026
 10
633.3961482935
 20
-539.9308651986
 10
628.2233865504
 20
-540.462274945
 10
623.1504548864
 20
-540.6723984873
 10
618.1874263982
 20
-540.5608230788
 10
613.3441529117
 20
-540.1277625735
 10
608.630254445
 20
-539.3740756763
 10
604.0550875986
 20
-538.301259856
 10
600.7009465637
 20
-537.2820282753
  0
LWPOLYLINE
  5
EA
330
1F
100
AcDbEntity
  8
0
  6
Continuous
 62
     1
370
    25
100
AcDbPolyline
 90
       29
 70
   128
 43
0.0
 10
576.4836163392
 20
-421.3467415252
 10
576.6883973394
 20
-419.5666205351
 10
577.563492355
 20
-413.2840365703
 10
578.6849357002
 20
-406.9162825843
 10
580.0499878298
 20
-400.4789371629
 10
581.655308606
 20
-393.9877552629
 10
583.4969678352
 20
-387.4586210643
 10
585.5704558047
 20
-380.907519074
 10
587.8707043559
 20
-374.3504702485
 10
590.3920763478
 20
-367.8035289515
 10
593.1284078038
 20
-361.282712995
 10
596.0730026434
 20
-354.8039762621
 10
599.2186537554
 20
-348.3831843742
 10
602.5576588033
 20
-342.0360447302
 10
606.0818518353
 20
-335.7780821742
 10
609.7826085523
 20
-329.6246177032
 10
613.6508726504
 20
-323.5907167583
 10
617.6771716254
 20
-317.6911314308
 10
621.8516589197
 20
-311.9403126334
 10
626.164119191
 20
-306.3523158038
 10
630.6039946537
 20
-300.9408404507
 10
635.1604245918
 20
-295.719103921
 10
639.8222558954
 20
-290.699896154
 10
644.5780799396
 20
-285.8955097223
 10
649.41626156
 20
-281.3176866021
 10
654.324957492
 20
-276.9776318632
 10
659.2921572011
 20
-272.8859779314
 10
664.3057039556
 20
-269.0527237528
 10
664.4712765329
 20
-268.9311268239
  0
LWPOLYLINE
  5
EB
330
1F
100
AcDbEntity
  8
0
  6
Continuous
 62
     1
370
    25
100
AcDbPolyline
 90
       57
 70
   128
 43
0.0
 10
792.2661491393
 20
-251.3906859736
 10
793.2551881599
 20
-253.2921550195
 10
795.4376468062
 20
-257.9756431452
 10
797.3886560339
 20
-262.8991116418
 10
799.1043488696
 20
-268.0527805935
 10
800.5813219554
 20
-273.4264168925
 10
801.8166355486
 20
-279.0093555312
 10
802.8078451319
 20
-284.7905087314
 10
803.5529803401
 20
-290.7583994022
 10
804.0505660336
 20
-296.9011778724
 10
804.2996012248
 20
-303.2066534477
 10
804.2996012248
 20
-309.6623027797
 10
804.0505660336
 20
-316.2553082664
 10
803.5529803401
 20
-322.9725869498
 10
802.8078451319
 20
-329.8007924197
 10
801.8166355486
 20
-336.7263718449
 10
800.5813219554
 20
-343.7355731994
 10
799.1043488696
 20
-350.8144863254
 10
797.3886560339
 20
-357.9490520608
 10
795.4376468062
 20
-365.125107864
 10
793.2551881599
 20
-372.328409107
 10
790.8456317571
 20
-379.5446412447
 10
788.2137401917
 20
-386.7594897704
 10
785.3647502096
 20
-393.9586280548
 10
782.3043200253
 20
-401.1277599264
 10
779.0385187848
 20
-408.2526500893
 10
775.573837103
 20
-415.3191606265
 10
771.9171449161
 20
-422.3132570795
 10
768.0757125554
 20
-429.2210510363
 10
764.0571686005
 20
-436.0288183784
 10
759.8694788059
 20
-442.7230661997
 10
755.5209619058
 20
-449.2904993477
 10
751.0202527356
 20
-455.7180660474
 10
746.3762916957
 20
-461.9930004868
 10
741.5982931409
 20
-468.1028653995
 10
736.6957453803
 20
-474.035503395
 10
731.678384336
 20
-479.7791616724
 10
726.556167201
 20
-485.3224220553
 10
721.3392619025
 20
-490.6542922463
 10
716.0380312968
 20
-495.7641662812
 10
710.6630015593
 20
-500.6419157821
 10
705.224838477
 20
-505.2778549736
 10
699.7343434968
 20
-509.6627672983
 10
694.2024155303
 20
-513.7879639696
 10
688.6400384414
 20
-517.6452303572
 10
683.058255363
 20
-521.2269381534
 10
677.4681489405
 20
-524.5259472713
 10
671.8808176246
 20
-527.5357290378
 10
666.3073539389
 20
-530.2503057344
 10
660.7588240654
 20
-532.6642745501
 10
655.2462441366
 20
-534.77285777
 10
649.7805591621
 20
-536.5718662703
 10
644.3726206385
 20
-538.0577124451
 10
639.0331654754
 20
-539.227458873
 10
633.7727936052
 20
-540.0787947417
 10
628.6019495437
 20
-540.6100099896
 10
624.5252376696
 20
-540.8040230669
  0
LWPOLYLINE
  5
EC
330
1F
100
AcDbEntity
  8
0
  6
Continuous
 62
     1
370
    25
100
AcDbPolyline
 90
       55
 70
   128
 43
0.0
 10
831.0735329382
 20
-293.1960541874
 10
832.634325569
 20
-295.8925952077
 10
834.8052254421
 20
-300.1757897922
 10
836.7472995379
 20
-304.7032935484
 10
838.4561961943
 20
-309.4650101628
 10
839.9281116583
 20
-314.450311049
 10
841.1597584756
 20
-319.6480748893
 10
842.1483971011
 20
-325.0466967629
 10
842.8918042886
 20
-330.6341428963
 10
843.3883363109
 20
-336.3979331788
 10
843.6368762766
 20
-342.3252135915
 10
843.6368762766
 20
-348.4027535497
 10
843.3883363109
 20
-354.6169920987
 10
842.8918042886
 20
-360.9540660515
 10
842.1483971011
 20
-367.3998318537
 10
841.1597584756
 20
-373.9399115877
 10
839.9281116583
 20
-380.5597045745
 10
838.4561961943
 20
-387.2444428819
 10
836.7472995379
 20
-393.9792095782
 10
834.8052254421
 20
-400.7489843574
 10
832.634325569
 20
-407.5386465837
 10
830.2394257327
 20
-414.3330604564
 10
827.6258785832
 20
-421.1170506805
 10
824.7995214587
 20
-427.8754937176
 10
821.7666447766
 20
-434.5933025742
 10
818.5340341794
 20
-441.2554815588
 10
815.1088915098
 20
-447.8471719024
 10
811.4988611525
 20
-454.3536608861
 10
807.7120036923
 20
-460.7604335508
 10
803.7567643039
 20
-467.0531970282
 10
799.6419727522
 20
-473.2178927091
 10
795.3768012449
 20
-479.2407935778
 10
790.9707802383
 20
-485.108434252
 10
786.4337352164
 20
-490.8077326498
 10
781.7757866911
 20
-496.3259717396
 10
777.0073291291
 20
-501.6508360397
 10
772.1390098779
 20
-506.7704359515
 10
767.1816843851
 20
-511.6733701129
 10
762.1464188328
 20
-516.3486752083
 10
757.0444479901
 20
-520.7859233039
 10
751.8871528234
 20
-524.9752226058
 10
746.6860460076
 20
-528.9072258239
 10
741.452731097
 20
-532.5731415752
 10
736.1988860614
 20
-535.964816892
 10
730.9362341454
 20
-539.0746567056
 10
725.6765183501
 20
-541.8957359169
 10
720.4314754204
 20
-544.4217535762
 10
715.2128078567
 20
-546.6470733751
 10
710.0321620188
 20
-548.5667362872
 10
704.901099314
 20
-550.1764650332
 10
699.8310652458
 20
-551.4726454463
 10
694.833376243
 20
-552.4524070807
 10
689.9191827814
 20
-553.113547161
 10
685.099450944
 20
-553.4545898974
 10
682.7564760251
 20
-553.5047005248
  0
LWPOLYLINE
  5
ED
330
1F
100
AcDbEntity
  8
0
  6
Continuous
 62
     1
370
    25
100
AcDbPolyline
 90
       28
 70
   128
 43
0.0
 10
577.650449206
 20
-420.4830350974
 10
577.7032908174
 20
-420.0394650931
 10
578.5773953821
 20
-413.7640035308
 10
579.6975743218
 20
-407.4034631772
 10
581.0610775547
 20
-400.9734180542
 10
582.6645754797
 20
-394.4895972639
 10
584.5041484399
 20
-387.9678667363
 10
586.5752867226
 20
-381.4241896851
 10
588.8729221692
 20
-374.8745779415
 10
591.3914387121
 20
-368.3350584944
 10
594.1246671064
 20
-361.8216369879
 10
597.0659218082
 20
-355.3502490549
 10
600.2080062432
 20
-348.9367359832
 10
603.5432286115
 20
-342.5967869213
 10
607.0634282295
 20
-336.3459236721
 10
610.7599860668
 20
-330.1994398565
 10
614.6238616243
 20
-324.1723735403
 10
618.6455982029
 20
-318.2794798581
 10
622.8153545135
 20
-312.5351762629
 10
627.122920482
 20
-306.9535212346
 10
631.5577646646
 20
-301.5481747403
 10
636.1090289795
 20
-296.3323647736
 10
640.7655734879
 20
-291.3188493358
 10
645.5160080038
 20
-286.5199103545
 10
650.3487026313
 20
-281.9472745972
 10
655.2518325453
 20
-277.6121486566
 10
660.2134003817
 20
-273.5251208525
 10
664.3068366522
 20
-270.3735094633
  0
LWPOLYLINE
  5
EE
330
1F
100
AcDbEntity
  8
0
  6
Continuous
 62
     1
370
    25
100
AcDbPolyline
 90
       62
 70
   128
 43
0.0
 10
822.7522119505
 20
-282.3082578608
 10
825.120748933
 20
-284.8616643026
 10
827.9459259457
 20
-288.3553985807
 10
830.5583772772
 20
-292.1202817977
 10
832.9522761258
 20
-296.1479178965
 10
835.1222698416
 20
-300.4293207454
 10
837.0635326106
 20
-304.9549293519
 10
838.7717127706
 20
-309.71465957
 10
840.2430171053
 20
-314.6978736887
 10
841.4741581604
 20
-319.8934625577
 10
842.4623753175
 20
-325.2898319006
 10
843.2054769403
 20
-330.8749388215
 10
843.7017982283
 20
-336.6363229797
 10
843.9502433636
 20
-342.5611212326
 10
843.9502433636
 20
-348.6361212447
 10
843.7017982283
 20
-354.8477681451
 10
843.2054769403
 20
-361.182192665
 10
842.4623753175
 20
-367.6252664572
 10
841.4741581604
 20
-374.1626070434
 10
840.2430171053
 20
-380.7796411183
 10
838.7717127706
 20
-387.4615870633
 10
837.0635326106
 20
-394.1935401142
 10
835.1222698416
 20
-400.9604830057
 10
832.9522761258
 20
-407.7473072695
 10
830.5583772772
 20
-414.5388801468
 10
827.9459259457
 20
-421.320035468
 10
825.120748933
 20
-428.0756496938
 10
822.089147193
 20
-434.7906479992
 10
818.8578800266
 20
-441.4500498995
 10
815.4341703499
 20
-448.03898446
 10
811.8256520108
 20
-454.5427572122
 10
808.0403750574
 20
-460.9468531957
 10
804.0867899328
 20
-467.2369825849
 10
799.9737158651
 20
-473.3991050205
 10
795.7103303306
 20
-479.4194904456
 10
791.3061479803
 20
-485.2846704344
 10
786.7709995665
 20
-490.9815963659
 10
782.1149950647
 20
-496.4975207891
 10
777.3485342096
 20
-501.8201616831
 10
772.4822485438
 20
-506.9376264059
 10
767.526993515
 20
-511.838501428
 10
762.4938326709
 20
-516.5118614569
 10
757.3939928783
 20
-520.9472587857
 10
752.2388551033
 20
-525.1348016208
 10
747.0399214844
 20
-529.0651609221
 10
741.8087936001
 20
-532.729546447
 10
736.5571444811
 20
-536.1197959118
 10
731.2966917746
 20
-539.228341814
 10
726.0391742008
 20
-542.0482371909
 10
720.7963235658
 20
-544.5732082787
 10
715.5798371015
 20
-546.7975974757
 10
710.401357875
 20
-548.7164598237
 10
705.2724367569
 20
-550.3255119587
 10
700.2045232021
 20
-551.6211496003
 10
695.2089204683
 20
-552.6004977386
 10
690.2967816656
 20
-553.2613642451
 10
685.4790623402
 20
-553.6022794125
 10
680.766517841
 20
-553.6224609734
 10
676.1696611727
 20
-553.3218992677
 10
671.6987445561
 20
-552.7012340462
 10
667.3637515259
 20
-551.7618685393
 10
667.2212530311
 20
-551.7249757598
  0
ENDSEC
  0
SECTION
  2
OBJECTS
  0
DICTIONARY
  5
C
330
0
100
AcDbDictionary
281
     1
  3
ACAD_GROUP
350
D
  3
ACAD_LAYOUT
350
1A
  3
ACAD_MLINESTYLE
350
17
  3
ACAD_PLOTSETTINGS
350
19
  3
ACAD_PLOTSTYLENAME
350
E
  3
ACAD_SCALELIST
350
47
  0
DICTIONARY
  5
D
102
{ACAD_REACTORS
330
C
102
}
330
C
100
AcDbDictionary
281
     1
  0
DICTIONARY
  5
1A
102
{ACAD_REACTORS
330
C
102
}
330
C
100
AcDbDictionary
281
     1
  3
Layout1
350
1E
  3
Layout2
350
26
  3
Model
350
22
  0
DICTIONARY
  5
17
102
{ACAD_REACTORS
330
C
102
}
330
C
100
AcDbDictionary
281
     1
  3
Standard
350
18
  0
DICTIONARY
  5
19
102
{ACAD_REACTORS
330
C
102
}
330
C
100
AcDbDictionary
281
     1
  0
ACDBDICTIONARYWDFLT
  5
E
102
{ACAD_REACTORS
330
C
102
}
330
C
100
AcDbDictionary
281
     1
  3
Normal
350
F
100
AcDbDictionaryWithDefault
340
F
  0
DICTIONARY
  5
47
102
{ACAD_REACTORS
330
C
102
}
330
C
100
AcDbDictionary
281
     1
  3
A0
350
48
  3
A1
350
49
  3
A2
350
4A
  3
A3
350
4B
  3
A4
350
4C
  3
A5
350
4D
  3
A6
350
4E
  3
A7
350
4F
  3
A8
350
50
  3
A9
350
51
  3
B0
350
52
  3
B1
350
53
  3
B2
350
54
  3
B3
350
55
  3
B4
350
56
  3
B5
350
57
  3
B6
350
58
  3
B7
350
59
  3
B8
350
5A
  3
B9
350
5B
  3
C0
350
5C
  3
C1
350
5D
  3
C2
350
5E
  3
C3
350
5F
  3
C4
350
60
  3
C5
350
61
  3
C6
350
62
  3
C7
350
63
  3
C8
350
64
  3
C9
350
65
  3
D0
350
66
  3
D1
350
67
  3
D2
350
68
  0
LAYOUT
  5
1E
102
{ACAD_REACTORS
330
1A
102
}
330
1A
100
AcDbPlotSettings
  1

  2
none_device
  4

  6

 40
0.0
 41
0.0
 42
0.0
 43
0.0
 44
0.0
 45
0.0
 46
0.0
 47
0.0
 48
0.0
 49
0.0
140
0.0
141
0.0
142
1.0
143
1.0
 70
   688
 72
     1
 73
     0
 74
     5
  7

 75
    16
147
1.0
148
0.0
149
0.0
100
AcDbLayout
  1
Layout1
 70
     1
 71
     1
 10
0.0
 20
0.0
 11
420.0
 21
297.0
 12
0.0
 22
0.0
 32
0.0
 14
1.0000000000E+20
 24
1.0000000000E+20
 34
1.0000000000E+20
 15
-1.0000000000E+20
 25
-1.0000000000E+20
 35
-1.0000000000E+20
146
0.0
 13
0.0
 23
0.0
 33
0.0
 16
1.0
 26
0.0
 36
0.0
 17
0.0
 27
1.0
 37
0.0
 76
     0
330
1B
  0
LAYOUT
  5
26
102
{ACAD_REACTORS
330
1A
102
}
330
1A
100
AcDbPlotSettings
  1

  2
none_device
  4

  6

 40
0.0
 41
0.0
 42
0.0
 43
0.0
 44
0.0
 45
0.0
 46
0.0
 47
0.0
 48
0.0
 49
0.0
140
0.0
141
0.0
142
1.0
143
1.0
 70
   688
 72
     1
 73
     0
 74
     5
  7

 75
    16
147
1.0
148
0.0
149
0.0
100
AcDbLayout
  1
Layout2
 70
     1
 71
     2
 10
0.0
 20
0.0
 11
0.0
 21
0.0
 12
0.0
 22
0.0
 32
0.0
 14
0.0
 24
0.0
 34
0.0
 15
0.0
 25
0.0
 35
0.0
146
0.0
 13
0.0
 23
0.0
 33
0.0
 16
1.0
 26
0.0
 36
0.0
 17
0.0
 27
1.0
 37
0.0
 76
     0
330
23
  0
LAYOUT
  5
22
102
{ACAD_REACTORS
330
1A
102
}
330
1A
100
AcDbPlotSettings
  1

  2
none_device
  4
Letter_(8.50_x_11.00_Inches)
  6

 40
6.35
 41
6.35
 42
6.35000508
 43
6.35000508
 44
215.9
 45
279.4
 46
0.0
 47
0.0
 48
0.0
 49
0.0
140
0.0
141
0.0
142
1.0
143
1.0
 70
  1712
 72
     1
 73
     0
 74
     0
  7

 75
     0
147
1.0
148
0.0
149
0.0
100
AcDbLayout
  1
Model
 70
     1
 71
     0
 10
0.0
 20
0.0
 11
279.4
 21
215.9
 12
0.0
 22
0.0
 32
0.0
 14
0.0
 24
0.0
 34
0.0
 15
279.4
 25
215.9
 35
0.0
146
0.0
 13
0.0
 23
0.0
 33
0.0
 16
1.0
 26
0.0
 36
0.0
 17
0.0
 27
1.0
 37
0.0
 76
     0
330
1F
331
29
  0
MLINESTYLE
  5
18
102
{ACAD_REACTORS
330
17
102
}
330
17
100
AcDbMlineStyle
  2
Standard
 70
     0
  3

 62
   256
 51
90.0
 52
90.0
 71
     2
 49
0.5
 62
   256
  6
BYLAYER
 49
-0.5
 62
   256
  6
BYLAYER
  0
ACDBPLACEHOLDER
  5
F
102
{ACAD_REACTORS
330
E
102
}
330
E
  0
SCALE
  5
48
102
{ACAD_REACTORS
330
47
102
}
330
47
100
AcDbScale
 70
     0
300
1:1
140
1.0
141
1.0
290
     1
  0
SCALE
  5
49
102
{ACAD_REACTORS
330
47
102
}
330
47
100
AcDbScale
 70
     0
300
1:2
140
1.0
141
2.0
290
     0
  0
SCALE
  5
4A
102
{ACAD_REACTORS
330
47
102
}
330
47
100
AcDbScale
 70
     0
300
1:4
140
1.0
141
4.0
290
     0
  0
SCALE
  5
4B
102
{ACAD_REACTORS
330
47
102
}
330
47
100
AcDbScale
 70
     0
300
1:5
140
1.0
141
5.0
290
     0
  0
SCALE
  5
4C
102
{ACAD_REACTORS
330
47
102
}
330
47
100
AcDbScale
 70
     0
300
1:8
140
1.0
141
8.0
290
     0
  0
SCALE
  5
4D
102
{ACAD_REACTORS
330
47
102
}
330
47
100
AcDbScale
 70
     0
300
1:10
140
1.0
141
10.0
290
     0
  0
SCALE
  5
4E
102
{ACAD_REACTORS
330
47
102
}
330
47
100
AcDbScale
 70
     0
300
1:16
140
1.0
141
16.0
290
     0
  0
SCALE
  5
4F
102
{ACAD_REACTORS
330
47
102
}
330
47
100
AcDbScale
 70
     0
300
1:20
140
1.0
141
20.0
290
     0
  0
SCALE
  5
50
102
{ACAD_REACTORS
330
47
102
}
330
47
100
AcDbScale
 70
     0
300
1:30
140
1.0
141
30.0
290
     0
  0
SCALE
  5
51
102
{ACAD_REACTORS
330
47
102
}
330
47
100
AcDbScale
 70
     0
300
1:40
140
1.0
141
40.0
290
     0
  0
SCALE
  5
52
102
{ACAD_REACTORS
330
47
102
}
330
47
100
AcDbScale
 70
     0
300
1:50
140
1.0
141
50.0
290
     0
  0
SCALE
  5
53
102
{ACAD_REACTORS
330
47
102
}
330
47
100
AcDbScale
 70
     0
300
1:100
140
1.0
141
100.0
290
     0
  0
SCALE
  5
54
102
{ACAD_REACTORS
330
47
102
}
330
47
100
AcDbScale
 70
     0
300
2:1
140
2.0
141
1.0
290
     0
  0
SCALE
  5
55
102
{ACAD_REACTORS
330
47
102
}
330
47
100
AcDbScale
 70
     0
300
4:1
140
4.0
141
1.0
290
     0
  0
SCALE
  5
56
102
{ACAD_REACTORS
330
47
102
}
330
47
100
AcDbScale
 70
     0
300
8:1
140
8.0
141
1.0
290
     0
  0
SCALE
  5
57
102
{ACAD_REACTORS
330
47
102
}
330
47
100
AcDbScale
 70
     0
300
10:1
140
10.0
141
1.0
290
     0
  0
SCALE
  5
58
102
{ACAD_REACTORS
330
47
102
}
330
47
100
AcDbScale
 70
     0
300
100:1
140
100.0
141
1.0
290
     0
  0
SCALE
  5
59
102
{ACAD_REACTORS
330
47
102
}
330
47
100
AcDbScale
 70
     0
300
1/128" = 1'-0"
140
0.0078125
141
12.0
290
     0
  0
SCALE
  5
5A
102
{ACAD_REACTORS
330
47
102
}
330
47
100
AcDbScale
 70
     0
300
1/64" = 1'-0"
140
0.015625
141
12.0
290
     0
  0
SCALE
  5
5B
102
{ACAD_REACTORS
330
47
102
}
330
47
100
AcDbScale
 70
     0
300
1/32" = 1'-0"
140
0.03125
141
12.0
290
     0
  0
SCALE
  5
5C
102
{ACAD_REACTORS
330
47
102
}
330
47
100
AcDbScale
 70
     0
300
1/16" = 1'-0"
140
0.0625
141
12.0
290
     0
  0
SCALE
  5
5D
102
{ACAD_REACTORS
330
47
102
}
330
47
100
AcDbScale
 70
     0
300
3/32" = 1'-0"
140
0.09375
141
12.0
290
     0
  0
SCALE
  5
5E
102
{ACAD_REACTORS
330
47
102
}
330
47
100
AcDbScale
 70
     0
300
1/8" = 1'-0"
140
0.125
141
12.0
290
     0
  0
SCALE
  5
5F
102
{ACAD_REACTORS
330
47
102
}
330
47
100
AcDbScale
 70
     0
300
3/16" = 1'-0"
140
0.1875
141
12.0
290
     0
  0
SCALE
  5
60
102
{ACAD_REACTORS
330
47
102
}
330
47
100
AcDbScale
 70
     0
300
1/4" = 1'-0"
140
0.25
141
12.0
290
     0
  0
SCALE
  5
61
102
{ACAD_REACTORS
330
47
102
}
330
47
100
AcDbScale
 70
     0
300
3/8" = 1'-0"
140
0.375
141
12.0
290
     0
  0
SCALE
  5
62
102
{ACAD_REACTORS
330
47
102
}
330
47
100
AcDbScale
 70
     0
300
1/2" = 1'-0"
140
0.5
141
12.0
290
     0
  0
SCALE
  5
63
102
{ACAD_REACTORS
330
47
102
}
330
47
100
AcDbScale
 70
     0
300
3/4" = 1'-0"
140
0.75
141
12.0
290
     0
  0
SCALE
  5
64
102
{ACAD_REACTORS
330
47
102
}
330
47
100
AcDbScale
 70
     0
300
1" = 1'-0"
140
1.0
141
12.0
290
     0
  0
SCALE
  5
65
102
{ACAD_REACTORS
330
47
102
}
330
47
100
AcDbScale
 70
     0
300
1-1/2" = 1'-0"
140
1.5
141
12.0
290
     0
  0
SCALE
  5
66
102
{ACAD_REACTORS
330
47
102
}
330
47
100
AcDbScale
 70
     0
300
3" = 1'-0"
140
3.0
141
12.0
290
     0
  0
SCALE
  5
67
102
{ACAD_REACTORS
330
47
102
}
330
47
100
AcDbScale
 70
     0
300
6" = 1'-0"
140
6.0
141
12.0
290
     0
  0
SCALE
  5
68
102
{ACAD_REACTORS
330
47
102
}
330
47
100
AcDbScale
 70
     0
300
1'-0" = 1'-0"
140
12.0
141
12.0
290
     0
  0
ENDSEC
  0
EOF
